ABOUT NIK KERSHAW
ABOUT NIK KERSHAW
ABOUT NIK KERSHAW
NIK KERSHAW DISCOGRAPHY
NIK KERSHAW LYRICS
NIK KERSHAW LINKS
NIK KERSHAW PIKS
RADIO K
NIK KERSHAW CHAT
NIK KERSHAW NEWS
NKFD
NIK KERSHAW MAILING LIST
NIK KERSHAW WEBSITE CREDITS

 

nik news

SLY Chord Progressions

Author: Paul Custer
Website:

Thanks to some creative work from Paul Custer, I am pleased to provide for your musical pleasure the chord progressions for Somebody Loves you below.



Artist: Nik Kershaw
Song Title: Somebody Loves You  
>From Album: 15 Minutes

Transcribed By: paul custer 
Contact Email: becuz111@aol.com

Tuning: standard
Capo: none

Notes on how to play it: intro is palm muted and somewhat staccato, 
        as is the first verse.  pay little mind to the amount and the
        "exact" rhythm of the pick scratches, i just threw those in 
        there for a little spice....

TAB:                                                      (let
  intro - (play2X)              verse                      ring)
e |----------------------------|-----------------------X-X----------|
b |----------------------------|-----------------------X-X-3-2---2--|
g |-----4------4------4-2-----4|-----4-----4-----4-----X-X-2-2---2--|
d |-----4------4------4-4-----4|-----4-----4-----4---0-0-X-0-2---2--|
a |-/~\----/~\----/~\-----/~\--|-/~\---/~\---/~\-------------0--0---|
e |-202----202----202-----202--|-202---202---202--------------------|

                     (let                         (let
   verse (cont.)      ring)                        ring)
e |-----------------X-4------------------------X-X------------------|
b |-XXX-2--XXX-2----X-5------------------------X-X-3-2---2--XXX-2---|
g |-XXX-2--XXX-2----X-6------4-----4-----4-----X-X-2-2---2--XXX-2---|
d |-XXX-2--XXX-2----X-6------4-----4-----4---0-0-X-0-2---2--XXX-2---|
a |-----0------0---4-----/~\---/~\---/~\-------------0--0-------0---|
e |----------------------202---202---202----------------------------| 

   verse (cont.)                                            
e |----------X-4----------------------------------------------------|
b |-XXX-2----X-5----3------3------3-------------------2-------------|
g |-XXX-2----X-6----4------4------4-------------------2-(strum------|
d |-XXX-2----X-6----5-XXX--5-XXX--5--5-4-2--XXX-2-XX2-2----into-----|
a |-----0---4-------5-XXX--5-XXX--5--5-5-2--XXX-2-XX2-0-----chorus)-|
e |---------------3---XXX-3--XXX-3---3-2-0--XXX-0-XX0---------------| 

  chorus: B F# B F# E F# E F# (repeat 2X)
  
  play intro riff once and play last note staccato and stop,
  
  verse 2 is the same as verse 1 except it is a little crunchier and
   the following is played:
  
e |-------|               |-------|
b |-------|               |-------|
g |-----4-| as opposed to |-----4-| 
d |-----4-|               |-----4-|
a |-/~\-4-|               |-/~\---|
e |-202---|               |-202---|

  chorus
  
  bridge: D A B D(barre) E A B D(barre) D A B D(barre) A 
  solo: solo huh?  i don't do solo's
  chorus and outro (same as intro)

  peace, i'm out....

Let me know if there are any problems

Cheers,

Drew


HOME : Nik News

Website content
Copyright © 1999 Andrew Heath